zIFBoards - Free Forum Hosting
Fully Featured & Customizable Free Forums

Learn More · Register for Free
Welcome to Shangri-la :: a chatmonchy forum. We hope you enjoy your visit.


You're currently viewing our forum as a guest. This means you are limited to certain areas of the board and there are some features you can't use. If you join our community, you'll be able to access member-only sections, and use many member-only features such as customizing your profile, sending personal messages, and voting in polls. Registration is simple, fast, and completely free.


Join our community!


If you're already a member please log in to your account to access all of our features:

Name:   Password:


 

 Yes or No or Love, Bass Tabs
airamisha5
Posted: Jun 9 2013, 09:55 PM


Daidai


Group: Elite Member
Posts: 175
Member No.: 621
Joined: 15-April 11



CODE


----------------------------
---------------------5-5---
--7-7--7--5-5--5----------
----------------------------

----------------------------
----------------------------
--7-7--7--5-5--5----------
--------------------3--3------

These two goes on repeat throughout the song except for the outro which is:

-----------------------------
-----------------------------
--7-7--7--5-5--5--3--3----
---------------------------1-



I just looked at how Ecchan played the song smile.gif


--------------------
The way you are now.
It's okay to change.
Don't forget who you truly are.
Top
DealsFor.me - The best sales, coupons, and discounts for you

Topic Options




Free chat widget @ ShoutMix
Skin created by Ben of the IF Skin Zone.


Hosted for free by zIFBoards* (Terms of Use: Updated 2/10/2010) | Powered by Invision Power Board v1.3 Final © 2003 IPS, Inc.
Page creation time: 0.1097 seconds · Archive